Пара советов начинающему программисту Программы для гитариста Скачать видео школу игры на гитаре Заказть подбор песни

Alex Nebo – Дорогая

Alex Nebo – Дорогая аккорды

Играть активно очень. h означает, что здесь нужно переехать с 3 лада на пятый не убирая палец со струны. Подбор не много не соответствует оригиналу, но так его играть легче)
В том месте где есть h можно по-другому сыграть – просто дойдя до первой струны сыграть перебором обратно до 4 струны)


E||-------------3---2---------|--------------2------------|
H||----------0----------0-----|----------3------3---------|
G||-------0-------------------|-------4-------------4-----|
D||----2----------------------|----4----------------------|
A||---------------------------|-2-------------------------|
E||-0-------------------------|---------------------------|

E||-------------3h5--3--0-----|-----------------------------|
H||----------1----------------|-----------------------------|
G||-------0-------------------|----------0--2---------------|
D||----2----------------------|-------0--------0------------|
A||-3-------------------------|----2--------------2---------|
E||---------------------------|-3---------------------3--2--|
 (Смотреть полностью...)

Animal Джаз – три полоски

Animal Джаз – три полоски аккорды

Общая тема.

Обозначения:

h-нужно будто молоточком ударить пальцем по грифу по

указанной струне на указанном ладу.

p- нужно просто отпустить резко струну в указанном месте

s- нужно сыграть ноту которая идёт перед буквой “s” и, не отпуская палец от грифа передвинуть его к ноте стоящей после “s”.

E||--------------1p0------------|--------------1p0-------1----3---|
H||-------3-------------1-------|-------3------------1------------|
G||----2-----2------------------|----2-----2----------------------|
D||-0---------------------------|-0-------------------------------|
A||-----------------------------|---------------------------------|
E||-----------------------------|---------------------------------|

E||---------------1p0-----------|---------------------------|
H||-------3--------------1------|---------------------------|
G||----3-----3------------------|----------2---2---0--------|
D||-----------------------------|-------3-------------------|
A||-1---------------------------|----3----------------------|
E||-----------------------------|-1-------------------------|

(Смотреть полностью…)

Rambler's Top100

Заказать подбор аккордов, аккорды к редким песням. © www.guitarko.ru 2011

Все тексты песен и аккорды представлены исключительно с целью обучения. пользователей использованию аппликатур аккордов музыкальных произведений. Авторские права на тексты песен принадлежат их владельцам.

Запрещается копирование, воспроизведение контента сайта, кодов страниц без письменного разрешения владельца. Согласно действующему законодательству за совершенное правонарушение в авторско-правовой сфере в отношении нарушителя может наступать ответственность трех видов: гражданско-правовая, административная, уголовная. Защита авторских прав осуществляется при поддержке www.copyright.ru